Tablature Pas Band_Jengah (full tab)

Category: Chord Gitar

INTRO..
e|---------------------------------------------------------------------------|
B|---------------------------------------------------------------------------|
G|---------------------------------------------------------------------------|
D|------4--3------4--3---------------4--3------4--3--------------------------|
A|---------------------------------------------------------------------------|
E|--6-6-------6-6-------6-6-4h6--6-6-------6-6-------6-6-4h6-----------------|

e|---------------------------------------------------------------------------|
B|---------------------------------------------------------------------------|
G|---------------------------------------------------------------------------|
D|---------------------------------------------------------------------------|
A|------4--3------6--4------3h4------4--3------6--4------3h4-----------------|
E|--2-2-------2-2-------2-2------2-2-------2-2-------2-2---------------------|

VOCAL..
e|---------------------------------------------------------------------------|
B|------7--6------7--6---------------7--6------7--6--------------------------|
G|---------------------------------------------------------------------------|
D|--8-8-------8-8-------8-8-6h8--8-8-------8-8-------8-8-6h8-----------------|
A|---------------------------------------------------------------------------|
E|---------------------------------------------------------------------------|

e|---------------------------------------------------------------------------|
B|----------------4----------------------------4-----------------------------|
G|------6--5---------6------5h6------6--5---------6------5h6-----------------|
D|--4-4-------4-4-------4-4------4-4-------4-4-------4-4---------------------|
A|---------------------------------------------------------------------------|
E|---------------------------------------------------------------------------|

Interlude/Melodi
..
e|---------------------------------------------------------------------------|
B|---------------------------------------------------------------------------|
G|---------------------------------------------------------------------------|
D|---------------------------------------------------------------------------|
A|--------------8-8--6-6---3h4-3-3-------------------------------------------|
E|--6---8/9-9------------------------6--4--6---------------------------------|

e|---------------------------------------------------------------------------|
B|----------------------------------------------------7-6--6b7--6b7-6b7-6b7--|
G|--------8--6--5-5---6-5-------6---------------6-5--------------------------|
D|-----8------------------8---8---6-4--3--4---6-----6------------------------|
A|--8------------------------------------------------------------------------|
E|---------------------------------------------------------------------------|

e|---------------------------------------------------------------------------|
B|--9-7-6-7-6---6------------------------------------------------------------|
G|------------8---8-6---6----------8-8-8-8-8-8-8-8---------------------------|
D|--------------------8---8-6------8-8-8-8-8-8-8-8--8-8-8-8-8-8-8-8----------|
A|----------------------------4h6--6-6-6-6-6-6-6-6--8-8-8-8-8-8-8-8----------|
E|--------------------------------------------------4-4-4-4-4-4-4-4----------|

e|--------------------------------16p14p13-16p14p13-16p14p13-16p14p13--18~---|
B|--11-11-11---13-14-7---9-11-4----------------------------------------------|
G|---------------------------------------------------------------------------|
D|---------------------------------------------------------------------------|
A|---------------------------------------------------------------------------|
E|---------------------------------------------------------------------------|

Share on Facebook Share on Twitter

Comments

No comments yet. Why not make the first one!

New Comment

[Sign In]
Name:

Comment:
(You can use BBCode)